Riffs to various songs

I Wish I Was Your Mother

(Ian Hunter)

1 ---9--------------------9-7-9-10-9-7------------------
2 -----10-7-9-9-9-7-9-7----------------10-9---7-9-10----
3 ----------------------9-------------------9-----------
4 ------------------------------------------------------
5 ------------------------------------------------------
6 ------------------------------------------------------

Violence (chorus riff)

(Ian Hunter)

1 ---10(PULL)9-----------------10(PULL)9----------------
2 -------------10------------------------10-------------
3 ----------------9(1/2 BEND)---------------9(1/2 BEND)-
4 ------------------------------------------------------
5 ------------------------------------------------------
6 ------------------------------------------------------
1 ---8(PULL)7----------------15(PULL)14-----------------
2 ------------8-------------------------15--------------
3 --------------7(1/2 BEND)----------------14(1/2 BEND)-
4 ------------------------------------------------------
5 ------------------------------------------------------
6 ------------------------------------------------------

Crash Street Kidds (intro)

(Ian Hunter)

1 -------------------------------------------------
2 -------------------------------------------------
3 ---14-10-----------10-12---16-12----------12-10--(repeat)
4 ----------10----10---------------12----12--------
5 -------------12---------------------14-----------
6 -------------------------------------------------

Disclaimer

This transcription has been determined after careful listening to the track(s) in question, and is provided for educational purposes only. Due to the possibility of mis-hearing, we cannot vouch for their accuracy. Copyright remains vested in the lawful copyright holders.

Credits

Transcribed by Rick Manson, except Violence transcribed by Rich Manson & Steve Norgrove

Terms and conditions.

Adrian Perkins