Lyrics/chords to "All The Young Dudes"

All The Young Dudes

(David Bowie)

Lead guitar intro (chords in []'s):
[D] [D (C#bass)]
bu bd bu bd
--14-------14--12--(13)--(12)--(13)--(12)------
-----15-----------------------------------14---
--------14-------------------------------------
-----------------------------------------------
-----------------------------------------------
-----------------------------------------------
[Bmin] [Bmin (Abass)]
bu bd bu
-----------------------------------------------
--15-12----15-14--(15)--(14)--(15)-12----------
--------11----------------------------14-------
-----------------------------------------------
-----------------------------------------------
-----------------------------------------------
[F#min]
bu hold..........|
-----------------------------------------------
--13--(14)-14-14-14-14--13-12------------------
------------------------------14---------------
-----------------------------------------------
-----------------------------------------------
-----------------------------------------------
[A]
bu hold..........| bu
-------------------------------15--(17)--------
--13--(14)-14-14-14-14--13-12--15--(17)--------
-----------------------------------------------
-----------------------------------------------
-----------------------------------------------
-----------------------------------------------

Disclaimer

This transcription has been determined after careful listening to the track(s) in question, and is provided for educational purposes only. Due to the possibility of mis-hearing, we cannot vouch for their accuracy. Copyright remains vested in the lawful copyright holders.

Credits

Transcribed by Christopher Owen

Terms and conditions.

Adrian Perkins